ISO-10303-21;
HEADER;
FILE_DESCRIPTION (( 'STEP AP214' ),
    '1' );
FILE_NAME ('FULLVAC RC1KF4016.STEP',
    '2019-04-24T08:35:20',
    ( '' ),
    ( '' ),
    'SwSTEP 2.0',
    'SolidWorks 2017',
    '' );
FILE_SCHEMA (( 'AUTOMOTIVE_DESIGN' ));
ENDSEC;

DATA;
#1 = CYLINDRICAL_SURFACE ( 'NONE', #120, 9.550000000000000700 ) ;
#2 = EDGE_LOOP ( 'NONE', ( #47 ) ) ;
#3 = PRODUCT_DEFINITION ( 'UNKNOWN', '', #35, #215 ) ;
#4 = ADVANCED_FACE ( 'NONE', ( #279, #285 ), #109, .T. ) ;
#5 = VERTEX_POINT ( 'NONE', #341 ) ;
#6 = SURFACE_STYLE_FILL_AREA ( #213 ) ;
#7 = PRODUCT_DEFINITION_SHAPE ( 'NONE', 'NONE',  #3 ) ;
#8 = EDGE_LOOP ( 'NONE', ( #28 ) ) ;
#9 = FILL_AREA_STYLE ('',( #311 ) ) ;
#10 = VERTEX_POINT ( 'NONE', #229 ) ;
#11 = AXIS2_PLACEMENT_3D ( 'NONE', #312, #74, #44 ) ;
#12 = CIRCLE ( 'NONE', #59, 15.00000000000000000 ) ;
#13 = ADVANCED_FACE ( 'NONE', ( #62, #195 ), #114, .T. ) ;
#14 = DIRECTION ( 'NONE',  ( -1.000000000000000000, 0.0000000000000000000, 0.0000000000000000000 ) ) ;
#15 = ORIENTED_EDGE ( 'NONE', *, *, #127, .F. ) ;
#16 = CARTESIAN_POINT ( 'NONE',  ( 2.540000000004899200, 0.0000000000000000000, 0.0000000000000000000 ) ) ;
#17 = CARTESIAN_POINT ( 'NONE',  ( 5.100000000005271900, 0.0000000000000000000, 0.0000000000000000000 ) ) ;
#18 = APPLICATION_PROTOCOL_DEFINITION ( 'draft international standard', 'automotive_design', 1998, #97 ) ;
#19 = EDGE_CURVE ( 'NONE', #75, #75, #273, .T. ) ;
#20 = CARTESIAN_POINT ( 'NONE',  ( 0.0000000000000000000, 0.0000000000000000000, 0.0000000000000000000 ) ) ;
#21 = FACE_OUTER_BOUND ( 'NONE', #269, .T. ) ;
#22 = DIRECTION ( 'NONE',  ( 0.0000000000000000000, 0.0000000000000000000, -1.000000000000000000 ) ) ;
#23 = CARTESIAN_POINT ( 'NONE',  ( 39.89999999999999900, 0.0000000000000000000, 0.0000000000000000000 ) ) ;
#24 = CARTESIAN_POINT ( 'NONE',  ( 2.540000000000000000, 3.597320452410390200E-016, -9.294399895858840900E-016 ) ) ;
#25 = STYLED_ITEM ( 'NONE', ( #286 ), #300 ) ;
#26 = ADVANCED_BREP_SHAPE_REPRESENTATION ( 'FULLVAC RC1KF4016', ( #300, #260 ), #283 ) ;
#27 = ORIENTED_EDGE ( 'NONE', *, *, #19, .F. ) ;
#28 = ORIENTED_EDGE ( 'NONE', *, *, #354, .T. ) ;
#29 = AXIS2_PLACEMENT_3D ( 'NONE', #23, #106, #219 ) ;
#30 = ADVANCED_FACE ( 'NONE', ( #124, #324 ), #63, .T. ) ;
#31 = EDGE_LOOP ( 'NONE', ( #61 ) ) ;
#32 = AXIS2_PLACEMENT_3D ( 'NONE', #288, #129, #72 ) ;
#33 = CIRCLE ( 'NONE', #29, 8.634999999999999800 ) ;
#34 = ORIENTED_EDGE ( 'NONE', *, *, #54, .T. ) ;
#35 = PRODUCT_DEFINITION_FORMATION_WITH_SPECIFIED_SOURCE ( 'ANY', '', #284, .NOT_KNOWN. ) ;
#36 =( NAMED_UNIT ( * ) PLANE_ANGLE_UNIT ( ) SI_UNIT ( $, .RADIAN. ) );
#37 = CARTESIAN_POINT ( 'NONE',  ( 0.0000000000000000000, -2.437219727497130000E-015, 0.0000000000000000000 ) ) ;
#38 = EDGE_LOOP ( 'NONE', ( #199 ) ) ;
#39 = CARTESIAN_POINT ( 'NONE',  ( 35.23967690125039800, 0.0000000000000000000, -9.550000000000000700 ) ) ;
#40 = FACE_OUTER_BOUND ( 'NONE', #304, .T. ) ;
#41 = ADVANCED_FACE ( 'NONE', ( #264, #52 ), #187, .F. ) ;
#42 = DIRECTION ( 'NONE',  ( 0.0000000000000000000, 0.0000000000000000000, 1.000000000000000000 ) ) ;
#43 = CARTESIAN_POINT ( 'NONE',  ( 39.89999999999999900, 0.0000000000000000000, 0.0000000000000000000 ) ) ;
#44 = DIRECTION ( 'NONE',  ( 0.0000000000000000000, 0.0000000000000000000, 1.000000000000000000 ) ) ;
#45 = FACE_BOUND ( 'NONE', #94, .T. ) ;
#46 = CARTESIAN_POINT ( 'NONE',  ( 36.69999999998842100, 0.0000000000000000000, 0.0000000000000000000 ) ) ;
#47 = ORIENTED_EDGE ( 'NONE', *, *, #130, .T. ) ;
#48 =( NAMED_UNIT ( * ) SI_UNIT ( $, .STERADIAN. ) SOLID_ANGLE_UNIT ( ) );
#49 = CARTESIAN_POINT ( 'NONE',  ( 0.0000000000000000000, 0.0000000000000000000, 0.0000000000000000000 ) ) ;
#50 = ORIENTED_EDGE ( 'NONE', *, *, #259, .T. ) ;
#51 = AXIS2_PLACEMENT_3D ( 'NONE', #16, #207, #42 ) ;
#52 = FACE_OUTER_BOUND ( 'NONE', #38, .T. ) ;
#53 = AXIS2_PLACEMENT_3D ( 'NONE', #143, #280, #302 ) ;
#54 = EDGE_CURVE ( 'NONE', #226, #226, #255, .T. ) ;
#55 = ORIENTED_EDGE ( 'NONE', *, *, #19, .T. ) ;
#56 = VERTEX_POINT ( 'NONE', #320 ) ;
#57 = EDGE_LOOP ( 'NONE', ( #299 ) ) ;
#58 = ORIENTED_EDGE ( 'NONE', *, *, #220, .T. ) ;
#59 = AXIS2_PLACEMENT_3D ( 'NONE', #317, #101, #103 ) ;
#60 = DIRECTION ( 'NONE',  ( 0.0000000000000000000, 0.0000000000000000000, -1.000000000000000000 ) ) ;
#61 = ORIENTED_EDGE ( 'NONE', *, *, #164, .F. ) ;
#62 = FACE_BOUND ( 'NONE', #119, .T. ) ;
#63 = PLANE ( 'NONE',  #146 ) ;
#64 = FACE_OUTER_BOUND ( 'NONE', #82, .T. ) ;
#65 = EDGE_LOOP ( 'NONE', ( #254 ) ) ;
#66 = EDGE_LOOP ( 'NONE', ( #98 ) ) ;
#67 = CARTESIAN_POINT ( 'NONE',  ( 2.540000000000000000, 0.0000000000000000000, -20.57499999999999900 ) ) ;
#68 = AXIS2_PLACEMENT_3D ( 'NONE', #37, #291, #174 ) ;
#69 = CARTESIAN_POINT ( 'NONE',  ( 39.89999999999999900, 0.0000000000000000000, 15.00000000000000000 ) ) ;
#70 = FACE_OUTER_BOUND ( 'NONE', #65, .T. ) ;
#71 = AXIS2_PLACEMENT_3D ( 'NONE', #331, #193, #60 ) ;
#72 = DIRECTION ( 'NONE',  ( 0.0000000000000000000, 0.0000000000000000000, -1.000000000000000000 ) ) ;
#73 = CARTESIAN_POINT ( 'NONE',  ( 0.0000000000000000000, 0.0000000000000000000, 0.0000000000000000000 ) ) ;
#74 = DIRECTION ( 'NONE',  ( 1.000000000000000000, -0.0000000000000000000, -0.0000000000000000000 ) ) ;
#75 = VERTEX_POINT ( 'NONE', #238 ) ;
#76 = DIRECTION ( 'NONE',  ( 0.0000000000000000000, 0.0000000000000000000, 1.000000000000000000 ) ) ;
#77 = DIRECTION ( 'NONE',  ( 0.0000000000000000000, 0.0000000000000000000, -1.000000000000000000 ) ) ;
#78 = PLANE ( 'NONE',  #296 ) ;
#79 =( LENGTH_UNIT ( ) NAMED_UNIT ( * ) SI_UNIT ( .MILLI., .METRE. ) );
#80 = SURFACE_SIDE_STYLE ('',( #6 ) ) ;
#81 = CARTESIAN_POINT ( 'NONE',  ( 31.79999999999472800, 0.0000000000000000000, 0.0000000000000000000 ) ) ;
#82 = EDGE_LOOP ( 'NONE', ( #231 ) ) ;
#83 = AXIS2_PLACEMENT_3D ( 'NONE', #105, #268, #292 ) ;
#84 = VERTEX_POINT ( 'NONE', #67 ) ;
#85 = DIRECTION ( 'NONE',  ( -1.000000000000000000, 7.899469380585390500E-018, 0.0000000000000000000 ) ) ;
#86 = CYLINDRICAL_SURFACE ( 'NONE', #347, 20.57499999999999900 ) ;
#87 = FACE_OUTER_BOUND ( 'NONE', #310, .T. ) ;
#88 = ORIENTED_EDGE ( 'NONE', *, *, #110, .F. ) ;
#89 = DIRECTION ( 'NONE',  ( 1.000000000000000000, -0.0000000000000000000, 0.0000000000000000000 ) ) ;
#90 = PRESENTATION_STYLE_ASSIGNMENT (( #99 ) ) ;
#91 = AXIS2_PLACEMENT_3D ( 'NONE', #160, #298, #188 ) ;
#92 = EDGE_CURVE ( 'NONE', #56, #56, #173, .T. ) ;
#93 = CIRCLE ( 'NONE', #241, 20.57499999999999900 ) ;
#94 = EDGE_LOOP ( 'NONE', ( #122 ) ) ;
#95 = FACE_OUTER_BOUND ( 'NONE', #333, .T. ) ;
#96 = VERTEX_POINT ( 'NONE', #184 ) ;
#97 = APPLICATION_CONTEXT ( 'automotive_design' ) ;
#98 = ORIENTED_EDGE ( 'NONE', *, *, #240, .T. ) ;
#99 = SURFACE_STYLE_USAGE ( .BOTH. , #203 ) ;
#100 = DIRECTION ( 'NONE',  ( 0.0000000000000000000, 0.0000000000000000000, 1.000000000000000000 ) ) ;
#101 = DIRECTION ( 'NONE',  ( -1.000000000000000000, 0.0000000000000000000, 0.0000000000000000000 ) ) ;
#102 = CIRCLE ( 'NONE', #91, 20.35910346561506400 ) ;
#103 = DIRECTION ( 'NONE',  ( 0.0000000000000000000, 0.0000000000000000000, 1.000000000000000000 ) ) ;
#104 = ORIENTED_EDGE ( 'NONE', *, *, #92, .T. ) ;
#105 = CARTESIAN_POINT ( 'NONE',  ( 0.0000000000000000000, 0.0000000000000000000, 0.0000000000000000000 ) ) ;
#106 = DIRECTION ( 'NONE',  ( -1.000000000000000000, 0.0000000000000000000, 0.0000000000000000000 ) ) ;
#107 = DIRECTION ( 'NONE',  ( 0.0000000000000000000, 0.0000000000000000000, 1.000000000000000000 ) ) ;
#108 = EDGE_LOOP ( 'NONE', ( #34 ) ) ;
#109 = CONICAL_SURFACE ( 'NONE', #53, 15.00000000000310300, 1.308996938999999400 ) ;
#110 = EDGE_CURVE ( 'NONE', #348, #348, #117, .T. ) ;
#111 = CIRCLE ( 'NONE', #245, 15.00000000000310300 ) ;
#112 = ORIENTED_EDGE ( 'NONE', *, *, #220, .F. ) ;
#113 = UNCERTAINTY_MEASURE_WITH_UNIT (LENGTH_MEASURE( 1.000000000000000100E-005 ), #289, 'distance_accuracy_value', 'NONE');
#114 = PLANE ( 'NONE',  #71 ) ;
#115 = ADVANCED_FACE ( 'NONE', ( #335, #40 ), #332, .F. ) ;
#116 = CARTESIAN_POINT ( 'NONE',  ( 2.540000000004897900, 0.0000000000000000000, 0.0000000000000000000 ) ) ;
#117 = CIRCLE ( 'NONE', #32, 27.44999999999999900 ) ;
#118 = FACE_OUTER_BOUND ( 'NONE', #57, .T. ) ;
#119 = EDGE_LOOP ( 'NONE', ( #167 ) ) ;
#120 = AXIS2_PLACEMENT_3D ( 'NONE', #49, #155, #134 ) ;
#121 = VERTEX_POINT ( 'NONE', #128 ) ;
#122 = ORIENTED_EDGE ( 'NONE', *, *, #222, .T. ) ;
#123 = APPLICATION_PROTOCOL_DEFINITION ( 'draft international standard', 'automotive_design', 1998, #176 ) ;
#124 = FACE_BOUND ( 'NONE', #352, .T. ) ;
#125 = AXIS2_PLACEMENT_3D ( 'NONE', #342, #177, #232 ) ;
#126 = ADVANCED_FACE ( 'NONE', ( #202, #138 ), #149, .F. ) ;
#127 = EDGE_CURVE ( 'NONE', #96, #96, #142, .T. ) ;
#128 = CARTESIAN_POINT ( 'NONE',  ( 5.099999999984938800, -20.35910346561506400, 0.0000000000000000000 ) ) ;
#129 = DIRECTION ( 'NONE',  ( 1.000000000000000000, 0.0000000000000000000, 0.0000000000000000000 ) ) ;
#130 = EDGE_CURVE ( 'NONE', #328, #328, #201, .T. ) ;
#131 = CARTESIAN_POINT ( 'NONE',  ( 5.100000000005271900, 0.0000000000000000000, 19.05000000001482600 ) ) ;
#132 = CARTESIAN_POINT ( 'NONE',  ( 0.0000000000000000000, 0.0000000000000000000, -27.44999999999999900 ) ) ;
#133 = DIRECTION ( 'NONE',  ( -1.000000000000000000, -0.0000000000000000000, -0.0000000000000000000 ) ) ;
#134 = DIRECTION ( 'NONE',  ( 0.0000000000000000000, 0.0000000000000000000, -1.000000000000000000 ) ) ;
#135 = EDGE_LOOP ( 'NONE', ( #189 ) ) ;
#136 = EDGE_LOOP ( 'NONE', ( #27 ) ) ;
#137 = ORIENTED_EDGE ( 'NONE', *, *, #240, .F. ) ;
#138 = FACE_OUTER_BOUND ( 'NONE', #318, .T. ) ;
#139 = CARTESIAN_POINT ( 'NONE',  ( 0.0000000000000000000, 0.0000000000000000000, 0.0000000000000000000 ) ) ;
#140 = COLOUR_RGB ( '',0.7450980392156862900, 0.7450980392156862900, 0.7450980392156862900 ) ;
#141 = PRESENTATION_LAYER_ASSIGNMENT (  '', '', ( #25 ) ) ;
#142 = CIRCLE ( 'NONE', #309, 27.45000000000404200 ) ;
#143 = CARTESIAN_POINT ( 'NONE',  ( 36.69999999998842100, 0.0000000000000000000, 0.0000000000000000000 ) ) ;
#144 = AXIS2_PLACEMENT_3D ( 'NONE', #353, #85, #274 ) ;
#145 = FACE_BOUND ( 'NONE', #136, .T. ) ;
#146 = AXIS2_PLACEMENT_3D ( 'NONE', #251, #89, #153 ) ;
#147 = EDGE_CURVE ( 'NONE', #308, #308, #239, .T. ) ;
#148 = CIRCLE ( 'NONE', #168, 9.549999999985177000 ) ;
#149 = PLANE ( 'NONE',  #68 ) ;
#150 = FACE_OUTER_BOUND ( 'NONE', #271, .T. ) ;
#151 = CONICAL_SURFACE ( 'NONE', #218, 19.05000000001482600, 0.3418371382256351600 ) ;
#152 = CARTESIAN_POINT ( 'NONE',  ( 36.69999999998842100, 0.0000000000000000000, -15.00000000000310300 ) ) ;
#153 = DIRECTION ( 'NONE',  ( 0.0000000000000000000, 0.0000000000000000000, -1.000000000000000000 ) ) ;
#154 = DIRECTION ( 'NONE',  ( -1.000000000000000000, 0.0000000000000000000, 0.0000000000000000000 ) ) ;
#155 = DIRECTION ( 'NONE',  ( 1.000000000000000000, 0.0000000000000000000, 0.0000000000000000000 ) ) ;
#156 = AXIS2_PLACEMENT_3D ( 'NONE', #24, #216, #242 ) ;
#157 = DIRECTION ( 'NONE',  ( -1.000000000000000000, 0.0000000000000000000, 0.0000000000000000000 ) ) ;
#158 = EDGE_LOOP ( 'NONE', ( #137 ) ) ;
#159 = COLOUR_RGB ( '',0.7450980392156862900, 0.7450980392156862900, 0.7450980392156862900 ) ;
#160 = CARTESIAN_POINT ( 'NONE',  ( 5.099999999984938800, -1.500899182287408300E-017, 0.0000000000000000000 ) ) ;
#161 = FACE_BOUND ( 'NONE', #66, .T. ) ;
#162 = EDGE_LOOP ( 'NONE', ( #192 ) ) ;
#163 = AXIS2_PLACEMENT_3D ( 'NONE', #267, #339, #76 ) ;
#164 = EDGE_CURVE ( 'NONE', #121, #121, #102, .T. ) ;
#165 = CYLINDRICAL_SURFACE ( 'NONE', #278, 15.00000000000000000 ) ;
#166 = ORIENTED_EDGE ( 'NONE', *, *, #110, .T. ) ;
#167 = ORIENTED_EDGE ( 'NONE', *, *, #130, .F. ) ;
#168 = AXIS2_PLACEMENT_3D ( 'NONE', #81, #157, #349 ) ;
#169 = UNCERTAINTY_MEASURE_WITH_UNIT (LENGTH_MEASURE( 1.000000000000000100E-005 ), #313, 'distance_accuracy_value', 'NONE');
#170 =( NAMED_UNIT ( * ) SI_UNIT ( $, .STERADIAN. ) SOLID_ANGLE_UNIT ( ) );
#171 = EDGE_LOOP ( 'NONE', ( #58 ) ) ;
#172 = ADVANCED_FACE ( 'NONE', ( #257, #180 ), #315, .T. ) ;
#173 = CIRCLE ( 'NONE', #256, 8.634999999999999800 ) ;
#174 = DIRECTION ( 'NONE',  ( 0.0000000000000000000, 0.0000000000000000000, -1.000000000000000000 ) ) ;
#175 = AXIS2_PLACEMENT_3D ( 'NONE', #179, #329, #253 ) ;
#176 = APPLICATION_CONTEXT ( 'automotive_design' ) ;
#177 = DIRECTION ( 'NONE',  ( -1.000000000000000000, 0.0000000000000000000, 0.0000000000000000000 ) ) ;
#178 = CARTESIAN_POINT ( 'NONE',  ( 35.23967690125039800, 0.0000000000000000000, 0.0000000000000000000 ) ) ;
#179 = CARTESIAN_POINT ( 'NONE',  ( 39.89999999999999900, 0.0000000000000000000, 0.0000000000000000000 ) ) ;
#180 = FACE_OUTER_BOUND ( 'NONE', #182, .T. ) ;
#181 = DIRECTION ( 'NONE',  ( 1.000000000000000000, -0.0000000000000000000, 0.0000000000000000000 ) ) ;
#182 = EDGE_LOOP ( 'NONE', ( #323 ) ) ;
#183 = DIRECTION ( 'NONE',  ( -1.000000000000000000, -0.0000000000000000000, -0.0000000000000000000 ) ) ;
#184 = CARTESIAN_POINT ( 'NONE',  ( 3.200000000015087700, 0.0000000000000000000, -27.45000000000404200 ) ) ;
#185 = SHAPE_DEFINITION_REPRESENTATION ( #7, #26 ) ;
#186 = CARTESIAN_POINT ( 'NONE',  ( 37.35999999999999900, 0.0000000000000000000, 7.849999999999999600 ) ) ;
#187 = CYLINDRICAL_SURFACE ( 'NONE', #175, 7.849999999999999600 ) ;
#188 = DIRECTION ( 'NONE',  ( 0.0000000000000000000, -1.000000000000000000, 0.0000000000000000000 ) ) ;
#189 = ORIENTED_EDGE ( 'NONE', *, *, #147, .F. ) ;
#190 = MECHANICAL_DESIGN_GEOMETRIC_PRESENTATION_REPRESENTATION (  '', ( #25 ), #327 ) ;
#191 = ORIENTED_EDGE ( 'NONE', *, *, #259, .F. ) ;
#192 = ORIENTED_EDGE ( 'NONE', *, *, #197, .T. ) ;
#193 = DIRECTION ( 'NONE',  ( 1.000000000000000000, -0.0000000000000000000, 0.0000000000000000000 ) ) ;
#194 = ADVANCED_FACE ( 'NONE', ( #95, #21 ), #165, .T. ) ;
#195 = FACE_OUTER_BOUND ( 'NONE', #272, .T. ) ;
#196 = AXIS2_PLACEMENT_3D ( 'NONE', #116, #224, #303 ) ;
#197 = EDGE_CURVE ( 'NONE', #261, #261, #111, .T. ) ;
#198 = SURFACE_STYLE_FILL_AREA ( #9 ) ;
#199 = ORIENTED_EDGE ( 'NONE', *, *, #54, .F. ) ;
#200 = PRODUCT_CONTEXT ( 'NONE', #97, 'mechanical' ) ;
#201 = CIRCLE ( 'NONE', #11, 19.05000000001482600 ) ;
#202 = FACE_BOUND ( 'NONE', #334, .T. ) ;
#203 = SURFACE_SIDE_STYLE ('',( #198 ) ) ;
#204 = CARTESIAN_POINT ( 'NONE',  ( 39.89999999999999900, 0.0000000000000000000, 8.634999999999999800 ) ) ;
#205 = DIRECTION ( 'NONE',  ( 1.000000000000000000, -0.0000000000000000000, -0.0000000000000000000 ) ) ;
#206 = ADVANCED_FACE ( 'NONE', ( #45, #118 ), #78, .T. ) ;
#207 = DIRECTION ( 'NONE',  ( -1.000000000000000000, 0.0000000000000000000, 0.0000000000000000000 ) ) ;
#208 = DIRECTION ( 'NONE',  ( -1.000000000000000000, 0.0000000000000000000, 0.0000000000000000000 ) ) ;
#209 =( NAMED_UNIT ( * ) PLANE_ANGLE_UNIT ( ) SI_UNIT ( $, .RADIAN. ) );
#210 = CARTESIAN_POINT ( 'NONE',  ( 39.89999999999999900, 0.0000000000000000000, 0.0000000000000000000 ) ) ;
#211 = FACE_OUTER_BOUND ( 'NONE', #282, .T. ) ;
#212 = DIRECTION ( 'NONE',  ( 0.0000000000000000000, 0.0000000000000000000, -1.000000000000000000 ) ) ;
#213 = FILL_AREA_STYLE ('',( #344 ) ) ;
#214 = SURFACE_STYLE_USAGE ( .BOTH. , #80 ) ;
#215 = PRODUCT_DEFINITION_CONTEXT ( 'detailed design', #176, 'design' ) ;
#216 = DIRECTION ( 'NONE',  ( 1.000000000000000000, -0.0000000000000000000, 0.0000000000000000000 ) ) ;
#217 = ORIENTED_EDGE ( 'NONE', *, *, #164, .T. ) ;
#218 = AXIS2_PLACEMENT_3D ( 'NONE', #17, #208, #236 ) ;
#219 = DIRECTION ( 'NONE',  ( 0.0000000000000000000, 0.0000000000000000000, 1.000000000000000000 ) ) ;
#220 = EDGE_CURVE ( 'NONE', #321, #321, #247, .T. ) ;
#221 = CYLINDRICAL_SURFACE ( 'NONE', #83, 27.44999999999999900 ) ;
#222 = EDGE_CURVE ( 'NONE', #244, #244, #33, .T. ) ;
#223 = ORIENTED_EDGE ( 'NONE', *, *, #147, .T. ) ;
#224 = DIRECTION ( 'NONE',  ( -1.000000000000000000, 0.0000000000000000000, 0.0000000000000000000 ) ) ;
#225 = FACE_OUTER_BOUND ( 'NONE', #307, .T. ) ;
#226 = VERTEX_POINT ( 'NONE', #293 ) ;
#227 =( GEOMETRIC_REPRESENTATION_CONTEXT ( 3 ) GLOBAL_UNCERTAINTY_ASSIGNED_CONTEXT ( ( #113 ) ) GLOBAL_UNIT_ASSIGNED_CONTEXT ( ( #289, #36, #170 ) ) REPRESENTATION_CONTEXT ( 'NONE', 'WORKASPACE' ) );
#228 =( NAMED_UNIT ( * ) SI_UNIT ( $, .STERADIAN. ) SOLID_ANGLE_UNIT ( ) );
#229 = CARTESIAN_POINT ( 'NONE',  ( 0.0000000000000000000, 0.0000000000000000000, -20.57499999999999900 ) ) ;
#230 = FACE_OUTER_BOUND ( 'NONE', #2, .T. ) ;
#231 = ORIENTED_EDGE ( 'NONE', *, *, #354, .F. ) ;
#232 = DIRECTION ( 'NONE',  ( 0.0000000000000000000, 0.0000000000000000000, 1.000000000000000000 ) ) ;
#233 = ADVANCED_FACE ( 'NONE', ( #305, #325 ), #1, .T. ) ;
#234 = CARTESIAN_POINT ( 'NONE',  ( 3.200000000015087700, 0.0000000000000000000, 0.0000000000000000000 ) ) ;
#235 = DIRECTION ( 'NONE',  ( 1.000000000000000000, -0.0000000000000000000, -0.0000000000000000000 ) ) ;
#236 = DIRECTION ( 'NONE',  ( 0.0000000000000000000, 0.0000000000000000000, 1.000000000000000000 ) ) ;
#237 = DIRECTION ( 'NONE',  ( 0.0000000000000000000, 0.0000000000000000000, -1.000000000000000000 ) ) ;
#238 = CARTESIAN_POINT ( 'NONE',  ( 2.540000000004897900, 0.0000000000000000000, 17.40000000001500500 ) ) ;
#239 = CIRCLE ( 'NONE', #125, 7.849999999999999600 ) ;
#240 = EDGE_CURVE ( 'NONE', #5, #5, #148, .T. ) ;
#241 = AXIS2_PLACEMENT_3D ( 'NONE', #346, #183, #22 ) ;
#242 = DIRECTION ( 'NONE',  ( 0.0000000000000000000, 0.0000000000000000000, -1.000000000000000000 ) ) ;
#243 = UNCERTAINTY_MEASURE_WITH_UNIT (LENGTH_MEASURE( 1.000000000000000100E-005 ), #79, 'distance_accuracy_value', 'NONE');
#244 = VERTEX_POINT ( 'NONE', #204 ) ;
#245 = AXIS2_PLACEMENT_3D ( 'NONE', #46, #316, #237 ) ;
#246 = EDGE_LOOP ( 'NONE', ( #104 ) ) ;
#247 = CIRCLE ( 'NONE', #330, 9.550000000000000700 ) ;
#248 = ORIENTED_EDGE ( 'NONE', *, *, #276, .T. ) ;
#249 = AXIS2_PLACEMENT_3D ( 'NONE', #43, #154, #340 ) ;
#250 = VERTEX_POINT ( 'NONE', #69 ) ;
#251 = CARTESIAN_POINT ( 'NONE',  ( 37.35999999999999900, 2.142874010085230000E-016, 5.166983446056901400E-016 ) ) ;
#252 = ADVANCED_FACE ( 'NONE', ( #145, #275 ), #351, .F. ) ;
#253 = DIRECTION ( 'NONE',  ( 0.0000000000000000000, 0.0000000000000000000, 1.000000000000000000 ) ) ;
#254 = ORIENTED_EDGE ( 'NONE', *, *, #222, .F. ) ;
#255 = CIRCLE ( 'NONE', #163, 7.849999999999999600 ) ;
#256 = AXIS2_PLACEMENT_3D ( 'NONE', #266, #235, #100 ) ;
#257 = FACE_BOUND ( 'NONE', #31, .T. ) ;
#258 = ORIENTED_EDGE ( 'NONE', *, *, #92, .F. ) ;
#259 = EDGE_CURVE ( 'NONE', #10, #10, #337, .T. ) ;
#260 = AXIS2_PLACEMENT_3D ( 'NONE', #73, #263, #265 ) ;
#261 = VERTEX_POINT ( 'NONE', #152 ) ;
#262 = CLOSED_SHELL ( 'NONE', ( #314, #233, #13, #4, #172, #194, #338, #206, #126, #287, #281, #30, #252, #41, #115 ) ) ;
#263 = DIRECTION ( 'NONE',  ( 0.0000000000000000000, 0.0000000000000000000, 1.000000000000000000 ) ) ;
#264 = FACE_OUTER_BOUND ( 'NONE', #135, .T. ) ;
#265 = DIRECTION ( 'NONE',  ( 1.000000000000000000, 0.0000000000000000000, 0.0000000000000000000 ) ) ;
#266 = CARTESIAN_POINT ( 'NONE',  ( 37.35999999999999900, 0.0000000000000000000, 0.0000000000000000000 ) ) ;
#267 = CARTESIAN_POINT ( 'NONE',  ( 31.80000000000000100, 0.0000000000000000000, 0.0000000000000000000 ) ) ;
#268 = DIRECTION ( 'NONE',  ( 1.000000000000000000, 0.0000000000000000000, 0.0000000000000000000 ) ) ;
#269 = EDGE_LOOP ( 'NONE', ( #295 ) ) ;
#270 = DIRECTION ( 'NONE',  ( 0.0000000000000000000, 0.0000000000000000000, -1.000000000000000000 ) ) ;
#271 = EDGE_LOOP ( 'NONE', ( #258 ) ) ;
#272 = EDGE_LOOP ( 'NONE', ( #217 ) ) ;
#273 = CIRCLE ( 'NONE', #196, 17.40000000001500500 ) ;
#274 = DIRECTION ( 'NONE',  ( 0.0000000000000000000, -1.000000000000000000, 0.0000000000000000000 ) ) ;
#275 = FACE_OUTER_BOUND ( 'NONE', #8, .T. ) ;
#276 = EDGE_CURVE ( 'NONE', #250, #250, #12, .T. ) ;
#277 = PRODUCT_RELATED_PRODUCT_CATEGORY ( 'part', '', ( #284 ) ) ;
#278 = AXIS2_PLACEMENT_3D ( 'NONE', #210, #14, #107 ) ;
#279 = FACE_BOUND ( 'NONE', #326, .T. ) ;
#280 = DIRECTION ( 'NONE',  ( 1.000000000000000000, 0.0000000000000000000, 0.0000000000000000000 ) ) ;
#281 = ADVANCED_FACE ( 'NONE', ( #225, #64 ), #86, .F. ) ;
#282 = EDGE_LOOP ( 'NONE', ( #15 ) ) ;
#283 =( GEOMETRIC_REPRESENTATION_CONTEXT ( 3 ) GLOBAL_UNCERTAINTY_ASSIGNED_CONTEXT ( ( #169 ) ) GLOBAL_UNIT_ASSIGNED_CONTEXT ( ( #313, #209, #228 ) ) REPRESENTATION_CONTEXT ( 'NONE', 'WORKASPACE' ) );
#284 = PRODUCT ( 'FULLVAC RC1KF4016', 'FULLVAC RC1KF4016', '', ( #200 ) ) ;
#285 = FACE_OUTER_BOUND ( 'NONE', #162, .T. ) ;
#286 = PRESENTATION_STYLE_ASSIGNMENT (( #214 ) ) ;
#287 = ADVANCED_FACE ( 'NONE', ( #70, #150 ), #297, .F. ) ;
#288 = CARTESIAN_POINT ( 'NONE',  ( 0.0000000000000000000, 0.0000000000000000000, 0.0000000000000000000 ) ) ;
#289 =( LENGTH_UNIT ( ) NAMED_UNIT ( * ) SI_UNIT ( .MILLI., .METRE. ) );
#290 = DIRECTION ( 'NONE',  ( 0.0000000000000000000, 0.0000000000000000000, -1.000000000000000000 ) ) ;
#291 = DIRECTION ( 'NONE',  ( 1.000000000000000000, -0.0000000000000000000, 0.0000000000000000000 ) ) ;
#292 = DIRECTION ( 'NONE',  ( 0.0000000000000000000, 0.0000000000000000000, -1.000000000000000000 ) ) ;
#293 = CARTESIAN_POINT ( 'NONE',  ( 31.80000000000000100, 0.0000000000000000000, 7.849999999999999600 ) ) ;
#294 = AXIS2_PLACEMENT_3D ( 'NONE', #139, #133, #270 ) ;
#295 = ORIENTED_EDGE ( 'NONE', *, *, #197, .F. ) ;
#296 = AXIS2_PLACEMENT_3D ( 'NONE', #345, #181, #290 ) ;
#297 = CYLINDRICAL_SURFACE ( 'NONE', #249, 8.634999999999999800 ) ;
#298 = DIRECTION ( 'NONE',  ( 1.000000000000000000, -7.899469380585390500E-018, -0.0000000000000000000 ) ) ;
#299 = ORIENTED_EDGE ( 'NONE', *, *, #276, .F. ) ;
#300 = MANIFOLD_SOLID_BREP ( '\X2\5BE69AD4\X0\2', #262 ) ;
#301 = STYLED_ITEM ( 'NONE', ( #90 ), #26 ) ;
#302 = DIRECTION ( 'NONE',  ( 0.0000000000000000000, 0.0000000000000000000, -1.000000000000000000 ) ) ;
#303 = DIRECTION ( 'NONE',  ( 0.0000000000000000000, 0.0000000000000000000, 1.000000000000000000 ) ) ;
#304 = EDGE_LOOP ( 'NONE', ( #55 ) ) ;
#305 = FACE_OUTER_BOUND ( 'NONE', #158, .T. ) ;
#306 = PRESENTATION_LAYER_ASSIGNMENT (  '', '', ( #301 ) ) ;
#307 = EDGE_LOOP ( 'NONE', ( #50 ) ) ;
#308 = VERTEX_POINT ( 'NONE', #186 ) ;
#309 = AXIS2_PLACEMENT_3D ( 'NONE', #234, #205, #336 ) ;
#310 = EDGE_LOOP ( 'NONE', ( #166 ) ) ;
#311 = FILL_AREA_STYLE_COLOUR ( '', #159 ) ;
#312 = CARTESIAN_POINT ( 'NONE',  ( 5.100000000005271900, 0.0000000000000000000, 0.0000000000000000000 ) ) ;
#313 =( LENGTH_UNIT ( ) NAMED_UNIT ( * ) SI_UNIT ( .MILLI., .METRE. ) );
#314 = ADVANCED_FACE ( 'NONE', ( #161, #230 ), #151, .T. ) ;
#315 = CONICAL_SURFACE ( 'NONE', #144, 27.45000000000404200, 1.308996939000000000 ) ;
#316 = DIRECTION ( 'NONE',  ( -1.000000000000000000, -0.0000000000000000000, -0.0000000000000000000 ) ) ;
#317 = CARTESIAN_POINT ( 'NONE',  ( 39.89999999999999900, 0.0000000000000000000, 0.0000000000000000000 ) ) ;
#318 = EDGE_LOOP ( 'NONE', ( #88 ) ) ;
#319 = DIRECTION ( 'NONE',  ( 1.000000000000000000, 0.0000000000000000000, 0.0000000000000000000 ) ) ;
#320 = CARTESIAN_POINT ( 'NONE',  ( 37.35999999999999900, 0.0000000000000000000, 8.634999999999999800 ) ) ;
#321 = VERTEX_POINT ( 'NONE', #39 ) ;
#322 = MECHANICAL_DESIGN_GEOMETRIC_PRESENTATION_REPRESENTATION (  '', ( #301 ), #227 ) ;
#323 = ORIENTED_EDGE ( 'NONE', *, *, #127, .T. ) ;
#324 = FACE_OUTER_BOUND ( 'NONE', #246, .T. ) ;
#325 = FACE_OUTER_BOUND ( 'NONE', #171, .T. ) ;
#326 = EDGE_LOOP ( 'NONE', ( #112 ) ) ;
#327 =( GEOMETRIC_REPRESENTATION_CONTEXT ( 3 ) GLOBAL_UNCERTAINTY_ASSIGNED_CONTEXT ( ( #243 ) ) GLOBAL_UNIT_ASSIGNED_CONTEXT ( ( #79, #350, #48 ) ) REPRESENTATION_CONTEXT ( 'NONE', 'WORKASPACE' ) );
#328 = VERTEX_POINT ( 'NONE', #131 ) ;
#329 = DIRECTION ( 'NONE',  ( -1.000000000000000000, 0.0000000000000000000, 0.0000000000000000000 ) ) ;
#330 = AXIS2_PLACEMENT_3D ( 'NONE', #178, #343, #212 ) ;
#331 = CARTESIAN_POINT ( 'NONE',  ( 5.099999999999999600, 0.0000000000000000000, -9.550000000000000700 ) ) ;
#332 = CONICAL_SURFACE ( 'NONE', #51, 17.40000000001500500, 0.3154832985325536900 ) ;
#333 = EDGE_LOOP ( 'NONE', ( #248 ) ) ;
#334 = EDGE_LOOP ( 'NONE', ( #191 ) ) ;
#335 = FACE_BOUND ( 'NONE', #108, .T. ) ;
#336 = DIRECTION ( 'NONE',  ( 0.0000000000000000000, 0.0000000000000000000, -1.000000000000000000 ) ) ;
#337 = CIRCLE ( 'NONE', #294, 20.57499999999999900 ) ;
#338 = ADVANCED_FACE ( 'NONE', ( #87, #211 ), #221, .T. ) ;
#339 = DIRECTION ( 'NONE',  ( 1.000000000000000000, -0.0000000000000000000, -0.0000000000000000000 ) ) ;
#340 = DIRECTION ( 'NONE',  ( 0.0000000000000000000, 0.0000000000000000000, 1.000000000000000000 ) ) ;
#341 = CARTESIAN_POINT ( 'NONE',  ( 31.79999999999472800, 0.0000000000000000000, -9.549999999985177000 ) ) ;
#342 = CARTESIAN_POINT ( 'NONE',  ( 37.35999999999999900, 0.0000000000000000000, 0.0000000000000000000 ) ) ;
#343 = DIRECTION ( 'NONE',  ( -1.000000000000000000, -0.0000000000000000000, -0.0000000000000000000 ) ) ;
#344 = FILL_AREA_STYLE_COLOUR ( '', #140 ) ;
#345 = CARTESIAN_POINT ( 'NONE',  ( 39.89999999999999900, 1.937561997600620000E-016, -4.849738739522680400E-016 ) ) ;
#346 = CARTESIAN_POINT ( 'NONE',  ( 2.540000000000000000, 0.0000000000000000000, 0.0000000000000000000 ) ) ;
#347 = AXIS2_PLACEMENT_3D ( 'NONE', #20, #319, #77 ) ;
#348 = VERTEX_POINT ( 'NONE', #132 ) ;
#349 = DIRECTION ( 'NONE',  ( 0.0000000000000000000, 0.0000000000000000000, -1.000000000000000000 ) ) ;
#350 =( NAMED_UNIT ( * ) PLANE_ANGLE_UNIT ( ) SI_UNIT ( $, .RADIAN. ) );
#351 = PLANE ( 'NONE',  #156 ) ;
#352 = EDGE_LOOP ( 'NONE', ( #223 ) ) ;
#353 = CARTESIAN_POINT ( 'NONE',  ( 3.200000000015087700, 0.0000000000000000000, 0.0000000000000000000 ) ) ;
#354 = EDGE_CURVE ( 'NONE', #84, #84, #93, .T. ) ;
ENDSEC;
END-ISO-10303-21;
